Dam Right Ive Got The Blues
Difficulty: Novice / Version: 1
Riffmaster Pro
Tranpose
I7 (A7)
e|---------------------------------------------------------------------|
B|---------------------------------------------------------------------|
G|-------------5------------------------------5------------------------|
D|---------5-----7--------5---------------5-----7---------5------------|
A|-----5-7---7--------5-7---7---------5-7---7---------5-7---7--3-4-----|
E|--5-------------(5)---------8-5----------------(5)-------------------|

     IV (D7)                        I7 (A7)
e|----------------------------------------------------------------------|
B|-------------6--------------------------------------------------------|
G|---------5-----7--------5---------------------5-----------------------|
D|-----5-7---7--------5-7---7---------------5-----7----------5----------|
A|--5-------------(5)------------------5--7---7---------5--7--7--5-6?---|
E|-----------------------------8----5---------------(5)-----------------|

    V7 (E7)         IV7 (D7)       I7 (A7)
e|------------------------------------------------------------------|----|
B|-------------8--------------6-------------------------------------|----|
G|---------7-----9--------5-----7----------------5------------------|----|
D|-----7-9---9--------5-7---7---------------5------7---------5------|----|
A|--7---------------5------------------5--7---7---------5--7---7--?-|----|
E|---------------------------------5---------------(5)-----------8--|-5--|
Riffmaster Pro
Riffmaster Pro