Smells Like Teen Spirit
Difficulty: Novice / Version: 1
Riffmaster Pro
Tranpose
[Intro]

E A G C (x4)


[Verse Intro]

E A G C (x2)


[Verse]

E    A     G
Load up on guns
C          E
Bring your friends
     A      G
It's fun to lose
    C     E
And to pretend
      A      G
She's overboard
C         E
Self-assured
  A      G      C     E
Oh no, I know a dirty word
E      A      G      C
Hello, hello, hello, how low (x4)


[Chorus]

E
With the lights out
A         G
It's less dangerous
C        E
Here we are now
A       G
Entertain us
C      E
I feel stupid
A       G
And contagious
C        E
Here we are now
A       G
Entertain us
C    E
A milato
A     G
An albino
C     E
A mosquito
A     G
My libido
C
Yeah


[Post-Chorus]
              Hey!
e|-----------------------------------------|
B|-----------------------2-2-0-0-----------|
G|--1-1-1-2-2--2^--1-1-1-2-2-0-0-1---------|
D|--2-2-2-3-3------2-2-2-2-2-0-0-2---------| x2
A|--2-2-2-3-3------2-2-2---------2---------|
E|-----------------------------------------|


[Solo]

e|-------------------------------------|
B|-------------------------------------|
G|---7-9---7-9-7-5-4-5-4---------------|
D|-9-----5---------------7-5-7-9-7-5-4-| x2
A|-------------------------------------|
E|-------------------------------------|

e|----------------------|
B|----------------------|
G|----------------------|
D|-5-4--5-4--5-4--5-4---| x4
A|--------------------7-|
E|----------------------|
Riffmaster Pro
Riffmaster Pro